  0
SECTION
  2
HEADER
  9
$ACADVER
  1
AC1015
  9
$ACADMAINTVER
 70
     6
  9
$DWGCODEPAGE
  3
ANSI_1254
  9
$INSBASE
 10
0.0
 20
0.0
 30
0.0
  9
$EXTMIN
 10
0.0
 20
0.0
 30
0.0
  9
$EXTMAX
 10
279.4
 20
215.9
 30
0.0
  9
$LIMMIN
 10
0.0
 20
0.0
  9
$LIMMAX
 10
279.4
 20
215.9
  9
$ORTHOMODE
 70
     0
  9
$REGENMODE
 70
     1
  9
$FILLMODE
 70
     1
  9
$QTEXTMODE
 70
     0
  9
$MIRRTEXT
 70
     1
  9
$LTSCALE
 40
1.0
  9
$ATTMODE
 70
     1
  9
$TEXTSIZE
 40
3.5
  9
$TRACEWID
 40
1.0
  9
$TEXTSTYLE
  7
Standard
  9
$CLAYER
  8
0
  9
$CELTYPE
  6
ByLayer
  9
$CECOLOR
 62
   256
  9
$CELTSCALE
 40
1.0
  9
$DISPSILH
 70
     0
  9
$DIMSCALE
 40
1.0
  9
$DIMASZ
 40
3.5
  9
$DIMEXO
 40
1.0
  9
$DIMDLI
 40
3.75
  9
$DIMRND
 40
0.0
  9
$DIMDLE
 40
0.0
  9
$DIMEXE
 40
1.0
  9
$DIMTP
 40
0.0
  9
$DIMTM
 40
0.0
  9
$DIMTXT
 40
3.5
  9
$DIMCEN
 40
2.5
  9
$DIMTSZ
 40
0.0
  9
$DIMTOL
 70
     0
  9
$DIMLIM
 70
     0
  9
$DIMTIH
 70
     1
  9
$DIMTOH
 70
     1
  9
$DIMSE1
 70
     0
  9
$DIMSE2
 70
     0
  9
$DIMTAD
 70
     1
  9
$DIMZIN
 70
     0
  9
$DIMBLK
  1

  9
$DIMASO
 70
     1
  9
$DIMSHO
 70
     1
  9
$DIMPOST
  1

  9
$DIMAPOST
  1

  9
$DIMALT
 70
     0
  9
$DIMALTD
 70
     3
  9
$DIMALTF
 40
0.0393700787
  9
$DIMLFAC
 40
1.0
  9
$DIMTOFL
 70
     1
  9
$DIMTVP
 40
0.0
  9
$DIMTIX
 70
     0
  9
$DIMSOXD
 70
     0
  9
$DIMSAH
 70
     0
  9
$DIMBLK1
  1

  9
$DIMBLK2
  1

  9
$DIMSTYLE
  2
ISO-25
  9
$DIMCLRD
 70
     0
  9
$DIMCLRE
 70
     0
  9
$DIMCLRT
 70
     0
  9
$DIMTFAC
 40
1.0
  9
$DIMGAP
 40
1.524
  9
$DIMJUST
 70
     0
  9
$DIMSD1
 70
     0
  9
$DIMSD2
 70
     0
  9
$DIMTOLJ
 70
     0
  9
$DIMTZIN
 70
     0
  9
$DIMALTZ
 70
     0
  9
$DIMALTTZ
 70
     0
  9
$DIMUPT
 70
     0
  9
$DIMDEC
 70
     2
  9
$DIMTDEC
 70
     2
  9
$DIMALTU
 70
     2
  9
$DIMALTTD
 70
     3
  9
$DIMTXSTY
  7
Standard
  9
$DIMAUNIT
 70
     0
  9
$DIMADEC
 70
     2
  9
$DIMALTRND
 40
0.0
  9
$DIMAZIN
 70
     0
  9
$DIMDSEP
 70
    44
  9
$DIMATFIT
 70
     3
  9
$DIMFRAC
 70
     0
  9
$DIMLDRBLK
  1

  9
$DIMLUNIT
 70
     2
  9
$DIMLWD
 70
    -2
  9
$DIMLWE
 70
    -2
  9
$DIMTMOVE
 70
     0
  9
$LUNITS
 70
     2
  9
$LUPREC
 70
     2
  9
$SKETCHINC
 40
1.0
  9
$FILLETRAD
 40
10.0
  9
$AUNITS
 70
     0
  9
$AUPREC
 70
     2
  9
$MENU
  1
.
  9
$ELEVATION
 40
0.0
  9
$PELEVATION
 40
0.0
  9
$THICKNESS
 40
0.0
  9
$LIMCHECK
 70
     0
  9
$CHAMFERA
 40
0.0
  9
$CHAMFERB
 40
0.0
  9
$CHAMFERC
 40
0.0
  9
$CHAMFERD
 40
0.0
  9
$SKPOLY
 70
     0
  9
$TDCREATE
 40
2459741.606085417
  9
$TDUCREATE
 40
2459741.481085417
  9
$TDUPDATE
 40
2459741.606085671
  9
$TDUUPDATE
 40
2459741.481085671
  9
$TDINDWG
 40
0.0000000116
  9
$TDUSRTIMER
 40
0.0000000116
  9
$USRTIMER
 70
     1
  9
$ANGBASE
 50
0.0
  9
$ANGDIR
 70
     0
  9
$PDMODE
 70
     0
  9
$PDSIZE
 40
-1.0
  9
$PLINEWID
 40
0.0
  9
$SPLFRAME
 70
     0
  9
$SPLINETYPE
 70
     6
  9
$SPLINESEGS
 70
     8
  9
$HANDSEED
  5
103
  9
$SURFTAB1
 70
     6
  9
$SURFTAB2
 70
     6
  9
$SURFTYPE
 70
     6
  9
$SURFU
 70
     6
  9
$SURFV
 70
     6
  9
$UCSBASE
  2

  9
$UCSNAME
  2

  9
$UCSORG
 10
0.0
 20
0.0
 30
0.0
  9
$UCSXDIR
 10
1.0
 20
0.0
 30
0.0
  9
$UCSYDIR
 10
0.0
 20
1.0
 30
0.0
  9
$UCSORTHOREF
  2

  9
$UCSORTHOVIEW
 70
     0
  9
$UCSORGTOP
 10
0.0
 20
0.0
 30
0.0
  9
$UCSORGBOTTOM
 10
0.0
 20
0.0
 30
0.0
  9
$UCSORGLEFT
 10
0.0
 20
0.0
 30
0.0
  9
$UCSORGRIGHT
 10
0.0
 20
0.0
 30
0.0
  9
$UCSORGFRONT
 10
0.0
 20
0.0
 30
0.0
  9
$UCSORGBACK
 10
0.0
 20
0.0
 30
0.0
  9
$PUCSBASE
  2

  9
$PUCSNAME
  2

  9
$PUCSORG
 10
0.0
 20
0.0
 30
0.0
  9
$PUCSXDIR
 10
1.0
 20
0.0
 30
0.0
  9
$PUCSYDIR
 10
0.0
 20
1.0
 30
0.0
  9
$PUCSORTHOREF
  2

  9
$PUCSORTHOVIEW
 70
     0
  9
$PUCSORGTOP
 10
0.0
 20
0.0
 30
0.0
  9
$PUCSORGBOTTOM
 10
0.0
 20
0.0
 30
0.0
  9
$PUCSORGLEFT
 10
0.0
 20
0.0
 30
0.0
  9
$PUCSORGRIGHT
 10
0.0
 20
0.0
 30
0.0
  9
$PUCSORGFRONT
 10
0.0
 20
0.0
 30
0.0
  9
$PUCSORGBACK
 10
0.0
 20
0.0
 30
0.0
  9
$USERI1
 70
     0
  9
$USERI2
 70
     0
  9
$USERI3
 70
     0
  9
$USERI4
 70
     0
  9
$USERI5
 70
     0
  9
$USERR1
 40
0.0
  9
$USERR2
 40
0.0
  9
$USERR3
 40
0.0
  9
$USERR4
 40
0.0
  9
$USERR5
 40
0.0
  9
$WORLDVIEW
 70
     1
  9
$SHADEDGE
 70
     3
  9
$SHADEDIF
 70
    70
  9
$TILEMODE
 70
     1
  9
$MAXACTVP
 70
    64
  9
$PINSBASE
 10
0.0
 20
0.0
 30
0.0
  9
$PLIMCHECK
 70
     0
  9
$PEXTMIN
 10
1.0000000000E+20
 20
1.0000000000E+20
 30
1.0000000000E+20
  9
$PEXTMAX
 10
-1.0000000000E+20
 20
-1.0000000000E+20
 30
-1.0000000000E+20
  9
$PLIMMIN
 10
0.0
 20
0.0
  9
$PLIMMAX
 10
420.0
 20
297.0
  9
$UNITMODE
 70
     0
  9
$VISRETAIN
 70
     1
  9
$PLINEGEN
 70
     0
  9
$PSLTSCALE
 70
     1
  9
$TREEDEPTH
 70
  3020
  9
$CMLSTYLE
  2
Standard
  9
$CMLJUST
 70
     0
  9
$CMLSCALE
 40
20.0
  9
$PROXYGRAPHICS
 70
     1
  9
$MEASUREMENT
 70
     1
  9
$CELWEIGHT
370
    -1
  9
$ENDCAPS
280
     0
  9
$JOINSTYLE
280
     0
  9
$LWDISPLAY
290
     1
  9
$INSUNITS
 70
     4
  9
$HYPERLINKBASE
  1

  9
$STYLESHEET
  1

  9
$XEDIT
290
     1
  9
$CEPSNTYPE
380
     0
  9
$PSTYLEMODE
290
     1
  9
$FINGERPRINTGUID
  2
{a6234825-76dd-4180-8087-110b7c3507e9}
  9
$VERSIONGUID
  2
{FAEB1C32-E019-11D5-929B-00C0DF256EC4}
  9
$EXTNAMES
290
     1
  9
$PSVPSCALE
 40
0.0
  9
$OLESTARTUP
290
     0
  0
ENDSEC
  0
SECTION
  2
CLASSES
  0
CLASS
  1
ACDBDICTIONARYWDFLT
  2
AcDbDictionaryWithDefault
  3
ObjectDBX Classes
 90
        0
280
     0
281
     0
  0
CLASS
  1
VISUALSTYLE
  2
AcDbVisualStyle
  3
ObjectDBX Classes
 90
     4095
280
     0
281
     0
  0
CLASS
  1
MATERIAL
  2
AcDbMaterial
  3
ObjectDBX Classes
 90
     1153
280
     0
281
     0
  0
CLASS
  1
SCALE
  2
AcDbScale
  3
ObjectDBX Classes
 90
     1153
280
     0
281
     0
  0
CLASS
  1
TABLESTYLE
  2
AcDbTableStyle
  3
ObjectDBX Classes
 90
     4095
280
     0
281
     0
  0
CLASS
  1
MLEADERSTYLE
  2
AcDbMLeaderStyle
  3
ACDB_MLEADERSTYLE_CLASS
 90
     4095
280
     0
281
     0
  0
CLASS
  1
SUN
  2
AcDbSun
  3
SCENEOE
 90
     1153
280
     0
281
     0
  0
CLASS
  1
ACDBPLACEHOLDER
  2
AcDbPlaceHolder
  3
ObjectDBX Classes
 90
        0
280
     0
281
     0
  0
CLASS
  1
LAYOUT
  2
AcDbLayout
  3
ObjectDBX Classes
 90
        0
280
     0
281
     0
  0
ENDSEC
  0
SECTION
  2
TABLES
  0
TABLE
  2
VPORT
  5
8
330
0
100
AcDbSymbolTable
 70
     1
  0
VPORT
  5
29
330
8
100
AcDbSymbolTableRecord
100
AcDbViewportTableRecord
  2
*Active
 70
     0
 10
0.0
 20
0.0
 11
1.0
 21
1.0
 12
139.7
 22
107.95
 13
0.0
 23
0.0
 14
10.0
 24
10.0
 15
10.0
 25
10.0
 16
0.0
 26
0.0
 36
1.0
 17
0.0
 27
0.0
 37
0.0
 40
215.9
 41
1.2941176471
 42
50.0
 43
0.0
 44
0.0
 50
0.0
 51
0.0
 71
     0
 72
  2000
 73
     1
 74
     3
 75
     0
 76
     0
 77
     0
 78
     0
281
     0
 65
     1
110
0.0
120
0.0
130
0.0
111
1.0
121
0.0
131
0.0
112
0.0
122
1.0
132
0.0
 79
     0
146
0.0
  0
ENDTAB
  0
TABLE
  2
LTYPE
  5
5
330
0
100
AcDbSymbolTable
 70
     6
  0
LTYPE
  5
14
330
5
100
AcDbSymbolTableRecord
100
AcDbLinetypeTableRecord
  2
ByBlock
 70
     0
  3

 72
    65
 73
     0
 40
0.0
  0
LTYPE
  5
15
330
5
100
AcDbSymbolTableRecord
100
AcDbLinetypeTableRecord
  2
ByLayer
 70
     0
  3

 72
    65
 73
     0
 40
0.0
  0
LTYPE
  5
16
330
5
100
AcDbSymbolTableRecord
100
AcDbLinetypeTableRecord
  2
Continuous
 70
     0
  3
Solid line
 72
    65
 73
     0
 40
0.0
  0
LTYPE
  5
6E
330
5
100
AcDbSymbolTableRecord
100
AcDbLinetypeTableRecord
  2
HIDDEN
 70
     0
  3
Hidden __ __ __ __ __ __ __ __ __ __ __ __ __ __
 72
    65
 73
     2
 40
1.905
 49
1.27
 74
     0
 49
-0.635
 74
     0
  0
LTYPE
  5
6F
330
5
100
AcDbSymbolTableRecord
100
AcDbLinetypeTableRecord
  2
PHANTOM
 70
     0
  3
Phantom ______  __  __  ______  __  __  ______
 72
    65
 73
     6
 40
12.7
 49
6.35
 74
     0
 49
-1.27
 74
     0
 49
1.27
 74
     0
 49
-1.27
 74
     0
 49
1.27
 74
     0
 49
-1.27
 74
     0
  0
LTYPE
  5
70
330
5
100
AcDbSymbolTableRecord
100
AcDbLinetypeTableRecord
  2
CENTER
 70
     0
  3
Center ____ _ ____ _ ____ _ ____ _ ____ _ ____
 72
    65
 73
     4
 40
10.16
 49
6.35
 74
     0
 49
-1.27
 74
     0
 49
1.27
 74
     0
 49
-1.27
 74
     0
  0
LTYPE
  5
71
330
5
100
AcDbSymbolTableRecord
100
AcDbLinetypeTableRecord
  2
CENTERX2
 70
     0
  3
Center (2x) ________  __  ________  __  _____
 72
    65
 73
     4
 40
20.32
 49
12.7
 74
     0
 49
-2.54
 74
     0
 49
2.54
 74
     0
 49
-2.54
 74
     0
  0
LTYPE
  5
72
330
5
100
AcDbSymbolTableRecord
100
AcDbLinetypeTableRecord
  2
DOT2
 70
     0
  3
Dot (.5x) ........................................
 72
    65
 73
     2
 40
0.635
 49
0.0
 74
     0
 49
-0.635
 74
     0
  0
ENDTAB
  0
TABLE
  2
LAYER
  5
2
330
0
100
AcDbSymbolTable
 70
    17
  0
LAYER
  5
10
330
2
100
AcDbSymbolTableRecord
100
AcDbLayerTableRecord
  2
0
 70
     0
 62
     7
  6
Continuous
370
    -3
390
F
  0
LAYER
  5
73
330
2
100
AcDbSymbolTableRecord
100
AcDbLayerTableRecord
  2
FORMAT
 70
     0
 62
     7
  6
Continuous
370
    -3
390
F
  0
LAYER
  5
74
330
2
100
AcDbSymbolTableRecord
100
AcDbLayerTableRecord
  2
YARDIMCI_GEOMETRI
 70
     0
 62
    -6
  6
Continuous
290
     0
370
    -3
390
F
  0
LAYER
  5
75
330
2
100
AcDbSymbolTableRecord
100
AcDbLayerTableRecord
  2
SAYFA_CERCEVESI
 70
     0
 62
     7
  6
Continuous
370
    25
390
F
  0
LAYER
  5
76
330
2
100
AcDbSymbolTableRecord
100
AcDbLayerTableRecord
  2
ANTET
 70
     0
 62
     7
  6
Continuous
370
    -3
390
F
  0
LAYER
  5
77
330
2
100
AcDbSymbolTableRecord
100
AcDbLayerTableRecord
  2
OLCU
 70
     0
 62
   150
  6
Continuous
370
    -3
390
F
  0
LAYER
  5
78
330
2
100
AcDbSymbolTableRecord
100
AcDbLayerTableRecord
  2
METIN
 70
     0
 62
    96
  6
Continuous
370
    -3
390
F
  0
LAYER
  5
79
330
2
100
AcDbSymbolTableRecord
100
AcDbLayerTableRecord
  2
BALON
 70
     0
 62
     5
  6
Continuous
370
    -3
390
F
  0
LAYER
  5
7A
330
2
100
AcDbSymbolTableRecord
100
AcDbLayerTableRecord
  2
VURGU
 70
     0
 62
     7
  6
Continuous
370
    -3
390
F
  0
LAYER
  5
7B
330
2
100
AcDbSymbolTableRecord
100
AcDbLayerTableRecord
  2
SILIK
 70
     0
 62
     7
  6
Continuous
370
    -3
390
F
  0
LAYER
  5
7C
330
2
100
AcDbSymbolTableRecord
100
AcDbLayerTableRecord
  2
MODEL
 70
     0
 62
     7
  6
Continuous
370
    -3
390
F
  0
LAYER
  5
7D
330
2
100
AcDbSymbolTableRecord
100
AcDbLayerTableRecord
  2
DETAYLANDıRMA
 70
     0
 62
   190
  6
Continuous
370
    -3
390
F
  0
LAYER
  5
7E
330
2
100
AcDbSymbolTableRecord
100
AcDbLayerTableRecord
  2
TOLERANS
 70
     0
 62
   230
  6
Continuous
370
    -3
390
F
  0
LAYER
  5
7F
330
2
100
AcDbSymbolTableRecord
100
AcDbLayerTableRecord
  2
MERKEZ_CIZGILERI
 70
     0
 62
    30
  6
Continuous
370
    -3
390
F
  0
LAYER
  5
80
330
2
100
AcDbSymbolTableRecord
100
AcDbLayerTableRecord
  2
KESIT-DETAY_CIZGILERI
 70
     0
 62
     7
  6
Continuous
370
    -3
390
F
  0
LAYER
  5
81
330
2
100
AcDbSymbolTableRecord
100
AcDbLayerTableRecord
  2
\U+041E\U+0421\U+0415\U+0412\U+042B\U+0415
 70
     0
 62
     7
  6
Continuous
370
    -3
390
F
  0
LAYER
  5
82
330
2
100
AcDbSymbolTableRecord
100
AcDbLayerTableRecord
  2
\U+0412\U+041E\U+0414\U+042F\U+041D\U+042B\U+0415_\U+0417\U+041D\U+0410\U+041A\U+0418
 70
     0
 62
    11
  6
Continuous
370
    -3
390
F
  0
ENDTAB
  0
TABLE
  2
STYLE
  5
3
330
0
100
AcDbSymbolTable
 70
     1
  0
STYLE
  5
11
330
3
100
AcDbSymbolTableRecord
100
AcDbTextStyleTableRecord
  2
Standard
 70
     0
 40
0.0
 41
1.0
 50
0.0
 71
     0
 42
3.5
  3
txt
  4

  0
ENDTAB
  0
TABLE
  2
VIEW
  5
6
330
0
100
AcDbSymbolTable
 70
     0
  0
ENDTAB
  0
TABLE
  2
UCS
  5
7
330
0
100
AcDbSymbolTable
 70
     0
  0
ENDTAB
  0
TABLE
  2
APPID
  5
9
330
0
100
AcDbSymbolTable
 70
     1
  0
APPID
  5
12
330
9
100
AcDbSymbolTableRecord
100
AcDbRegAppTableRecord
  2
ACAD
 70
     0
  0
ENDTAB
  0
TABLE
  2
DIMSTYLE
  5
A
330
0
100
AcDbSymbolTable
 70
     1
100
AcDbDimStyleTable
  0
DIMSTYLE
105
27
330
A
100
AcDbSymbolTableRecord
100
AcDbDimStyleTableRecord
  2
ISO-25
 70
     0
 41
2.5
 42
0.625
 43
3.75
 44
1.25
 73
     0
 74
     0
 77
     1
 78
     8
140
2.5
141
2.5
143
0.0393700787
147
0.625
171
     3
172
     1
178
     0
271
     2
272
     2
274
     3
278
    44
283
     0
284
     8
340
11
  0
ENDTAB
  0
TABLE
  2
BLOCK_RECORD
  5
1
330
0
100
AcDbSymbolTable
 70
     5
  0
BLOCK_RECORD
  5
1F
330
1
100
AcDbSymbolTableRecord
100
AcDbBlockTableRecord
  2
*Model_Space
340
22
  0
BLOCK_RECORD
  5
1B
330
1
100
AcDbSymbolTableRecord
100
AcDbBlockTableRecord
  2
*Paper_Space
340
1E
  0
BLOCK_RECORD
  5
23
330
1
100
AcDbSymbolTableRecord
100
AcDbBlockTableRecord
  2
*Paper_Space0
340
26
  0
BLOCK_RECORD
  5
8B
330
1
100
AcDbSymbolTableRecord
100
AcDbBlockTableRecord
  2
SW_CENTERMARKSYMBOL_0
340
0
102
{BLKREFS
331
96
102
}
  0
BLOCK_RECORD
  5
A9
330
1
100
AcDbSymbolTableRecord
100
AcDbBlockTableRecord
  2
SW_CENTERMARKSYMBOL_1
340
0
102
{BLKREFS
331
B4
102
}
  0
BLOCK_RECORD
  5
D9
330
1
100
AcDbSymbolTableRecord
100
AcDbBlockTableRecord
  2
SW_CENTERMARKSYMBOL_2
340
0
102
{BLKREFS
331
E4
102
}
  0
BLOCK_RECORD
  5
E5
330
1
100
AcDbSymbolTableRecord
100
AcDbBlockTableRecord
  2
SW_CENTERMARKSYMBOL_3
340
0
102
{BLKREFS
331
F0
102
}
  0
ENDTAB
  0
ENDSEC
  0
SECTION
  2
BLOCKS
  0
BLOCK
  5
20
330
1F
100
AcDbEntity
  8
0
100
AcDbBlockBegin
  2
*Model_Space
 70
     0
 10
0.0
 20
0.0
 30
0.0
  3
*Model_Space
  1

  0
ENDBLK
  5
21
330
1F
100
AcDbEntity
  8
0
100
AcDbBlockEnd
  0
BLOCK
  5
1C
330
1B
100
AcDbEntity
 67
     1
  8
0
100
AcDbBlockBegin
  2
*Paper_Space
 70
     0
 10
0.0
 20
0.0
 30
0.0
  3
*Paper_Space
  1

  0
ENDBLK
  5
1D
330
1B
100
AcDbEntity
 67
     1
  8
0
100
AcDbBlockEnd
  0
BLOCK
  5
24
330
23
100
AcDbEntity
  8
0
100
AcDbBlockBegin
  2
*Paper_Space0
 70
     0
 10
0.0
 20
0.0
 30
0.0
  3
*Paper_Space0
  1

  0
ENDBLK
  5
25
330
23
100
AcDbEntity
  8
0
100
AcDbBlockEnd
  0
BLOCK
  5
8C
330
8B
100
AcDbEntity
  8
0
100
AcDbBlockBegin
  2
SW_CENTERMARKSYMBOL_0
 70
     0
 10
0.0
 20
0.0
 30
0.0
  3
SW_CENTERMARKSYMBOL_0
  1

  0
LINE
  5
8E
330
8B
100
AcDbEntity
  8
FORMAT
 62
     0
100
AcDbLine
 10
0.0
 20
0.0
 30
0.0
 11
0.0
 21
2.5
 31
0.0
  0
LINE
  5
8F
330
8B
100
AcDbEntity
  8
FORMAT
 62
     0
100
AcDbLine
 10
0.0
 20
0.0
 30
0.0
 11
-2.5
 21
0.0
 31
0.0
  0
LINE
  5
90
330
8B
100
AcDbEntity
  8
FORMAT
 62
     0
100
AcDbLine
 10
0.0
 20
0.0
 30
0.0
 11
0.0
 21
-2.5
 31
0.0
  0
LINE
  5
91
330
8B
100
AcDbEntity
  8
FORMAT
 62
     0
100
AcDbLine
 10
0.0
 20
0.0
 30
0.0
 11
2.5
 21
0.0
 31
0.0
  0
LINE
  5
92
330
8B
100
AcDbEntity
  8
FORMAT
 62
     0
100
AcDbLine
 10
0.0
 20
5.0
 30
0.0
 11
0.0
 21
42.5
 31
0.0
  0
LINE
  5
93
330
8B
100
AcDbEntity
  8
FORMAT
 62
     0
100
AcDbLine
 10
-5.0
 20
0.0
 30
0.0
 11
-42.5
 21
0.0
 31
0.0
  0
LINE
  5
94
330
8B
100
AcDbEntity
  8
FORMAT
 62
     0
100
AcDbLine
 10
0.0
 20
-5.0
 30
0.0
 11
0.0
 21
-42.5
 31
0.0
  0
LINE
  5
95
330
8B
100
AcDbEntity
  8
FORMAT
 62
     0
100
AcDbLine
 10
5.0
 20
0.0
 30
0.0
 11
42.5
 21
0.0
 31
0.0
  0
ENDBLK
  5
8D
330
8B
100
AcDbEntity
  8
0
100
AcDbBlockEnd
  0
BLOCK
  5
AA
330
A9
100
AcDbEntity
  8
0
100
AcDbBlockBegin
  2
SW_CENTERMARKSYMBOL_1
 70
     0
 10
0.0
 20
0.0
 30
0.0
  3
SW_CENTERMARKSYMBOL_1
  1

  0
LINE
  5
AC
330
A9
100
AcDbEntity
  8
FORMAT
 62
     0
100
AcDbLine
 10
0.0
 20
0.0
 30
0.0
 11
0.0
 21
2.5
 31
0.0
  0
LINE
  5
AD
330
A9
100
AcDbEntity
  8
FORMAT
 62
     0
100
AcDbLine
 10
0.0
 20
0.0
 30
0.0
 11
-2.5
 21
0.0
 31
0.0
  0
LINE
  5
AE
330
A9
100
AcDbEntity
  8
FORMAT
 62
     0
100
AcDbLine
 10
0.0
 20
0.0
 30
0.0
 11
0.0
 21
-2.5
 31
0.0
  0
LINE
  5
AF
330
A9
100
AcDbEntity
  8
FORMAT
 62
     0
100
AcDbLine
 10
0.0
 20
0.0
 30
0.0
 11
2.5
 21
0.0
 31
0.0
  0
LINE
  5
B0
330
A9
100
AcDbEntity
  8
FORMAT
 62
     0
100
AcDbLine
 10
0.0
 20
5.0
 30
0.0
 11
0.0
 21
18.5
 31
0.0
  0
LINE
  5
B1
330
A9
100
AcDbEntity
  8
FORMAT
 62
     0
100
AcDbLine
 10
-5.0
 20
0.0
 30
0.0
 11
-18.5
 21
0.0
 31
0.0
  0
LINE
  5
B2
330
A9
100
AcDbEntity
  8
FORMAT
 62
     0
100
AcDbLine
 10
0.0
 20
-5.0
 30
0.0
 11
0.0
 21
-18.5
 31
0.0
  0
LINE
  5
B3
330
A9
100
AcDbEntity
  8
FORMAT
 62
     0
100
AcDbLine
 10
5.0
 20
0.0
 30
0.0
 11
18.5
 21
0.0
 31
0.0
  0
ENDBLK
  5
AB
330
A9
100
AcDbEntity
  8
0
100
AcDbBlockEnd
  0
BLOCK
  5
DA
330
D9
100
AcDbEntity
  8
0
100
AcDbBlockBegin
  2
SW_CENTERMARKSYMBOL_2
 70
     0
 10
0.0
 20
0.0
 30
0.0
  3
SW_CENTERMARKSYMBOL_2
  1

  0
LINE
  5
DC
330
D9
100
AcDbEntity
  8
FORMAT
 62
     0
100
AcDbLine
 10
0.0
 20
0.0
 30
0.0
 11
0.0
 21
2.5
 31
0.0
  0
LINE
  5
DD
330
D9
100
AcDbEntity
  8
FORMAT
 62
     0
100
AcDbLine
 10
0.0
 20
0.0
 30
0.0
 11
-2.5
 21
0.0
 31
0.0
  0
LINE
  5
DE
330
D9
100
AcDbEntity
  8
FORMAT
 62
     0
100
AcDbLine
 10
0.0
 20
0.0
 30
0.0
 11
0.0
 21
-2.5
 31
0.0
  0
LINE
  5
DF
330
D9
100
AcDbEntity
  8
FORMAT
 62
     0
100
AcDbLine
 10
0.0
 20
0.0
 30
0.0
 11
2.5
 21
0.0
 31
0.0
  0
LINE
  5
E0
330
D9
100
AcDbEntity
  8
FORMAT
 62
     0
100
AcDbLine
 10
0.0
 20
5.0
 30
0.0
 11
0.0
 21
9.5
 31
0.0
  0
LINE
  5
E1
330
D9
100
AcDbEntity
  8
FORMAT
 62
     0
100
AcDbLine
 10
-5.0
 20
0.0
 30
0.0
 11
-9.5
 21
0.0
 31
0.0
  0
LINE
  5
E2
330
D9
100
AcDbEntity
  8
FORMAT
 62
     0
100
AcDbLine
 10
0.0
 20
-5.0
 30
0.0
 11
0.0
 21
-9.5
 31
0.0
  0
LINE
  5
E3
330
D9
100
AcDbEntity
  8
FORMAT
 62
     0
100
AcDbLine
 10
5.0
 20
0.0
 30
0.0
 11
9.5
 21
0.0
 31
0.0
  0
ENDBLK
  5
DB
330
D9
100
AcDbEntity
  8
0
100
AcDbBlockEnd
  0
BLOCK
  5
E6
330
E5
100
AcDbEntity
  8
0
100
AcDbBlockBegin
  2
SW_CENTERMARKSYMBOL_3
 70
     0
 10
0.0
 20
0.0
 30
0.0
  3
SW_CENTERMARKSYMBOL_3
  1

  0
LINE
  5
E8
330
E5
100
AcDbEntity
  8
FORMAT
 62
     0
100
AcDbLine
 10
0.0
 20
0.0
 30
0.0
 11
0.0
 21
2.5
 31
0.0
  0
LINE
  5
E9
330
E5
100
AcDbEntity
  8
FORMAT
 62
     0
100
AcDbLine
 10
0.0
 20
0.0
 30
0.0
 11
-2.5
 21
0.0
 31
0.0
  0
LINE
  5
EA
330
E5
100
AcDbEntity
  8
FORMAT
 62
     0
100
AcDbLine
 10
0.0
 20
0.0
 30
0.0
 11
0.0
 21
-2.5
 31
0.0
  0
LINE
  5
EB
330
E5
100
AcDbEntity
  8
FORMAT
 62
     0
100
AcDbLine
 10
0.0
 20
0.0
 30
0.0
 11
2.5
 21
0.0
 31
0.0
  0
LINE
  5
EC
330
E5
100
AcDbEntity
  8
FORMAT
 62
     0
100
AcDbLine
 10
0.0
 20
5.0
 30
0.0
 11
0.0
 21
9.5
 31
0.0
  0
LINE
  5
ED
330
E5
100
AcDbEntity
  8
FORMAT
 62
     0
100
AcDbLine
 10
-5.0
 20
0.0
 30
0.0
 11
-9.5
 21
0.0
 31
0.0
  0
LINE
  5
EE
330
E5
100
AcDbEntity
  8
FORMAT
 62
     0
100
AcDbLine
 10
0.0
 20
-5.0
 30
0.0
 11
0.0
 21
-9.5
 31
0.0
  0
LINE
  5
EF
330
E5
100
AcDbEntity
  8
FORMAT
 62
     0
100
AcDbLine
 10
5.0
 20
0.0
 30
0.0
 11
9.5
 21
0.0
 31
0.0
  0
ENDBLK
  5
E7
330
E5
100
AcDbEntity
  8
0
100
AcDbBlockEnd
  0
ENDSEC
  0
SECTION
  2
ENTITIES
  0
LINE
  5
83
330
1F
100
AcDbEntity
  8
0
  6
Continuous
 62
     7
370
    25
100
AcDbLine
 10
127.3021197083
 20
155.0263309503
 30
0.0
 11
127.3021197083
 21
186.1394224182
 31
0.0
  0
LINE
  5
84
330
1F
100
AcDbEntity
  8
0
  6
Continuous
 62
     7
370
    25
100
AcDbLine
 10
113.3021197083
 20
186.1394224182
 30
0.0
 11
113.3021197083
 21
155.0234226863
 31
0.0
  0
LINE
  5
85
330
1F
100
AcDbEntity
  8
0
  6
Continuous
 62
     7
370
    25
100
AcDbLine
 10
156.9879701161
 20
99.6394224182
 30
0.0
 11
212.3021197083
 21
99.6394224182
 31
0.0
  0
LINE
  5
86
330
1F
100
AcDbEntity
  8
0
  6
Continuous
 62
     7
370
    25
100
AcDbLine
 10
212.3021197083
 20
131.6394224182
 30
0.0
 11
156.9834555178
 21
131.6394224182
 31
0.0
  0
CIRCLE
  5
87
330
1F
100
AcDbEntity
  8
0
  6
Continuous
 62
     7
370
    25
100
AcDbCircle
 10
120.3021197083
 20
115.6394224182
 30
0.0
 40
31.50000000000001
  0
CIRCLE
  5
88
330
1F
100
AcDbEntity
  8
0
  6
Continuous
 62
     7
370
    25
100
AcDbCircle
 10
120.3021197083
 20
115.6394224182
 30
0.0
 40
40.00000000000001
  0
LINE
  5
89
330
1F
100
AcDbEntity
  8
0
  6
Continuous
 62
     7
370
    25
100
AcDbLine
 10
127.3021197083
 20
186.1394224182
 30
0.0
 11
113.3021197083
 21
186.1394224182
 31
0.0
  0
LINE
  5
8A
330
1F
100
AcDbEntity
  8
0
  6
Continuous
 62
     7
370
    25
100
AcDbLine
 10
212.3021197083
 20
131.6394224182
 30
0.0
 11
212.3021197083
 21
99.6394224182
 31
0.0
  0
INSERT
  5
96
330
1F
100
AcDbEntity
  8
FORMAT
 62
     7
100
AcDbBlockReference
  2
SW_CENTERMARKSYMBOL_0
 10
120.3021197083
 20
115.6394224182
 30
0.0
  0
LINE
  5
97
330
1F
100
AcDbEntity
  8
0
  6
Continuous
 62
     7
370
    25
100
AcDbLine
 10
-170.4837605495
 20
155.6394224182
 30
0.0
 11
-171.502595499
 21
155.6394224182
 31
0.0
  0
LINE
  5
98
330
1F
100
AcDbEntity
  8
0
  6
Continuous
 62
     7
370
    25
100
AcDbLine
 10
-22.4837605495
 20
155.6394224182
 30
0.0
 11
-156.502595499
 21
155.6394224182
 31
0.0
  0
LINE
  5
99
330
1F
100
AcDbEntity
  8
0
  6
Continuous
 62
     7
370
    25
100
AcDbLine
 10
-7.502595499
 20
155.6394224182
 30
0.0
 11
-8.502595499
 21
155.6394224182
 31
0.0
  0
LINE
  5
9A
330
1F
100
AcDbEntity
  8
0
  6
Continuous
 62
     7
370
    25
100
AcDbLine
 10
-171.502595499
 20
75.6394224182
 30
0.0
 11
-7.502595499
 21
75.6394224182
 31
0.0
  0
LINE
  5
9B
330
1F
100
AcDbEntity
  8
0
  6
Continuous
 62
     7
370
    25
100
AcDbLine
 10
-8.502595499
 20
155.6394224182
 30
0.0
 11
-8.502595499
 21
186.1394224182
 31
0.0
  0
LINE
  5
9C
330
1F
100
AcDbEntity
  8
0
  6
Continuous
 62
     7
370
    25
100
AcDbLine
 10
-22.502595499
 20
186.1394224182
 30
0.0
 11
-22.502595499
 21
155.6361396584
 31
0.0
  0
LINE
  5
9D
330
1F
100
AcDbEntity
  8
0
  6
Continuous
 62
     7
370
    25
100
AcDbLine
 10
-156.502595499
 20
155.6394224182
 30
0.0
 11
-156.502595499
 21
186.1394224182
 31
0.0
  0
LINE
  5
9E
330
1F
100
AcDbEntity
  8
0
  6
Continuous
 62
     7
370
    25
100
AcDbLine
 10
-170.502595499
 20
186.1394224182
 30
0.0
 11
-170.502595499
 21
155.6361396584
 31
0.0
  0
CIRCLE
  5
9F
330
1F
100
AcDbEntity
  8
0
  6
Continuous
 62
     7
370
    25
100
AcDbCircle
 10
-89.502595499
 20
115.6394224182
 30
0.0
 40
12.99999999999999
  0
CIRCLE
  5
A0
330
1F
100
AcDbEntity
  8
0
  6
Continuous
 62
     7
370
    25
100
AcDbCircle
 10
-89.502595499
 20
115.6394224182
 30
0.0
 40
16.0
  0
LINE
  5
A1
330
1F
100
AcDbEntity
  8
0
  6
Continuous
 62
     7
370
    25
100
AcDbLine
 10
-171.502595499
 20
115.6394224182
 30
0.0
 11
-171.502595499
 21
155.6394224182
 31
0.0
  0
LINE
  5
A2
330
1F
100
AcDbEntity
  8
0
  6
Continuous
 62
     7
370
    25
100
AcDbLine
 10
-171.502595499
 20
75.6394224182
 30
0.0
 11
-171.502595499
 21
115.6394224182
 31
0.0
  0
LINE
  5
A3
330
1F
100
AcDbEntity
  8
0
  6
Continuous
 62
     7
370
    25
100
AcDbLine
 10
-7.502595499
 20
115.6394224182
 30
0.0
 11
-7.502595499
 21
155.6394224182
 31
0.0
  0
LINE
  5
A4
330
1F
100
AcDbEntity
  8
0
  6
Continuous
 62
     7
370
    25
100
AcDbLine
 10
-7.502595499
 20
75.6394224182
 30
0.0
 11
-7.502595499
 21
115.6394224182
 31
0.0
  0
SPLINE
  5
A5
330
1F
100
AcDbEntity
  8
0
  6
Continuous
 62
     7
370
    25
100
AcDbSpline
210
0.0
220
0.0
230
1.0
 70
     8
 71
     3
 72
    26
 73
    22
 74
     0
 42
0.00000001
 43
0.00000001
 40
0.0
 40
0.0
 40
0.0
 40
0.0
 40
0.05237446859372
 40
0.1062818262333994
 40
0.1586523694408184
 40
0.2125152249020938
 40
0.2653744664375877
 40
0.3197450442193736
 40
0.3729395875070164
 40
0.4277066401178663
 40
0.4803558846474332
 40
0.5345675023679165
 40
0.586639390978617
 40
0.6402072654921822
 40
0.692569601904707
 40
0.7464103371621765
 40
0.7994741393026453
 40
0.854072288161584
 40
0.9071646812192989
 40
0.9618359470163516
 40
1.0
 40
1.0
 40
1.0
 40
1.0
 10
-156.5025954989667
 20
155.6394224182237
 30
0.0
 10
-156.5209790848122
 20
155.636184386626
 30
0.0
 10
-156.5582843048714
 20
155.6296135531485
 30
0.0
 10
-156.8581599502583
 20
155.5781282268143
 30
0.0
 10
-157.3318304504732
 20
155.5014203998934
 30
0.0
 10
-157.9765032508463
 20
155.4057998177487
 30
0.0
 10
-158.7828848912892
 20
155.3008082652705
 30
0.0
 10
-159.719469468163
 20
155.1992683518761
 30
0.0
 10
-160.7758974597561
 20
155.1113748993482
 30
0.0
 10
-161.9007717749568
 20
155.0490622936292
 30
0.0
 10
-163.0790918816966
 20
155.0185373153335
 30
0.0
 10
-164.2505999049531
 20
155.0234785052206
 30
0.0
 10
-165.4065287092261
 20
155.0628186050275
 30
0.0
 10
-166.4959865768854
 20
155.131070161229
 30
0.0
 10
-167.5127157570436
 20
155.2219355559717
 30
0.0
 10
-168.4149742091283
 20
155.3244316524645
 30
0.0
 10
-169.1905526746031
 20
155.4287842468306
 30
0.0
 10
-169.8042508826682
 20
155.5220522647788
 30
0.0
 10
-170.2370983232126
 20
155.5933359826446
 30
0.0
 10
-170.4758160891674
 20
155.6347180062356
 30
0.0
 10
-170.4814460895391
 20
155.6357222835368
 30
0.0
 10
-170.4837605495454
 20
155.6361351360227
 30
0.0
  0
SPLINE
  5
A6
330
1F
100
AcDbEntity
  8
0
  6
Continuous
 62
     7
370
    25
100
AcDbSpline
210
0.0
220
0.0
230
1.0
 70
     8
 71
     3
 72
    26
 73
    22
 74
     0
 42
0.00000001
 43
0.00000001
 40
0.0
 40
0.0
 40
0.0
 40
0.0
 40
0.05237446859372
 40
0.1062818262333993
 40
0.1586523694408183
 40
0.2125152249020935
 40
0.2653744664375874
 40
0.3197450442193733
 40
0.3729395875070162
 40
0.427706640117866
 40
0.4803558846474328
 40
0.5345675023679161
 40
0.5866393909786165
 40
0.6402072654921817
 40
0.6925696019047064
 40
0.746410337162176
 40
0.7994741393026448
 40
0.8540722881615833
 40
0.9071646812192984
 40
0.9618359470163511
 40
1.0
 40
1.0
 40
1.0
 40
1.0
 10
-8.50259549896673
 20
155.6394224182237
 30
0.0
 10
-8.520979084812168
 20
155.636184386626
 30
0.0
 10
-8.55828430487135
 20
155.6296135531485
 30
0.0
 10
-8.858159950258294
 20
155.5781282268143
 30
0.0
 10
-9.331830450473227
 20
155.5014203998934
 30
0.0
 10
-9.9765032508463
 20
155.4057998177487
 30
0.0
 10
-10.78288489128916
 20
155.3008082652705
 30
0.0
 10
-11.71946946816296
 20
155.1992683518761
 30
0.0
 10
-12.77589745975608
 20
155.1113748993482
 30
0.0
 10
-13.9007717749567
 20
155.0490622936292
 30
0.0
 10
-15.07909188169662
 20
155.0185373153335
 30
0.0
 10
-16.25059990495303
 20
155.0234785052206
 30
0.0
 10
-17.40652870922611
 20
155.0628186050275
 30
0.0
 10
-18.49598657688536
 20
155.131070161229
 30
0.0
 10
-19.51271575704357
 20
155.2219355559718
 30
0.0
 10
-20.41497420912827
 20
155.3244316524645
 30
0.0
 10
-21.19055267460303
 20
155.4287842468306
 30
0.0
 10
-21.80425088266816
 20
155.5220522647788
 30
0.0
 10
-22.23709832321255
 20
155.5933359826446
 30
0.0
 10
-22.47581608916732
 20
155.6347180062356
 30
0.0
 10
-22.48144608953909
 20
155.6357222835368
 30
0.0
 10
-22.48376054954534
 20
155.6361351360227
 30
0.0
  0
LINE
  5
A7
330
1F
100
AcDbEntity
  8
0
  6
Continuous
 62
     7
370
    25
100
AcDbLine
 10
-8.502595499
 20
186.1394224182
 30
0.0
 11
-22.502595499
 21
186.1394224182
 31
0.0
  0
LINE
  5
A8
330
1F
100
AcDbEntity
  8
0
  6
Continuous
 62
     7
370
    25
100
AcDbLine
 10
-156.502595499
 20
186.1394224182
 30
0.0
 11
-170.502595499
 21
186.1394224182
 31
0.0
  0
INSERT
  5
B4
330
1F
100
AcDbEntity
  8
FORMAT
 62
     7
100
AcDbBlockReference
  2
SW_CENTERMARKSYMBOL_1
 10
-89.502595499
 20
115.6394224182
 30
0.0
  0
LINE
  5
B5
330
1F
100
AcDbEntity
  8
0
  6
Continuous
 62
     7
370
    25
100
AcDbLine
 10
160.3021197083
 20
326.4168687182
 30
0.0
 11
160.3021197083
 21
392.4168687182
 31
0.0
  0
LINE
  5
B6
330
1F
100
AcDbEntity
  8
0
  6
Continuous
 62
     7
370
    25
100
AcDbLine
 10
160.3021197083
 20
228.4168687182
 30
0.0
 11
160.3021197083
 21
294.4419055149
 31
0.0
  0
LINE
  5
B7
330
1F
100
AcDbEntity
  8
0
  6
Continuous
 62
     7
370
    25
100
AcDbLine
 10
80.3021197083
 20
392.4168687182
 30
0.0
 11
80.3021197083
 21
228.4168687182
 31
0.0
  0
LINE
  5
B8
330
1F
100
AcDbEntity
  8
0
  6
Continuous
 62
     7
370
    25
100
AcDbLine
 10
160.292176117
 20
294.4168687182
 30
0.0
 11
212.3021197083
 21
294.4168687182
 31
0.0
  0
LINE
  5
B9
330
1F
100
AcDbEntity
  8
0
  6
Continuous
 62
     7
370
    25
100
AcDbLine
 10
212.3021197083
 20
326.4168687182
 30
0.0
 11
160.3021197083
 21
326.4168687182
 31
0.0
  0
SPLINE
  5
BA
330
1F
100
AcDbEntity
  8
0
  6
Continuous
 62
     7
370
    25
100
AcDbSpline
210
0.0
220
0.0
230
1.0
 70
     8
 71
     3
 72
    27
 73
    23
 74
     0
 42
0.00000001
 43
0.00000001
 40
0.0
 40
0.0
 40
0.0
 40
0.0
 40
0.0501324802018486
 40
0.1017857593181302
 40
0.1519011939064788
 40
0.2033603817703167
 40
0.2556380432840539
 40
0.3093035109738344
 40
0.3637722077689608
 40
0.419962020523769
 40
0.4718867012160108
 40
0.5255507022499238
 40
0.573984551290171
 40
0.6237756089572345
 40
0.6732836470683623
 40
0.7240327302172614
 40
0.7773118795767915
 40
0.8320708783819533
 40
0.886265043836408
 40
0.9422262686257247
 40
0.9932119749483658
 40
1.0
 40
1.0
 40
1.0
 40
1.0
 10
160.3021197083208
 20
326.4168687181968
 30
0.0
 10
160.2863454736433
 20
326.3776386905108
 30
0.0
 10
160.2543184833995
 20
326.2979885686735
 30
0.0
 10
160.0030462760319
 20
325.6600299909363
 30
0.0
 10
159.6271214892298
 20
324.6593107981174
 30
0.0
 10
159.1484497732063
 20
323.2910833766055
 30
0.0
 10
158.6048752180182
 20
321.5612075763133
 30
0.0
 10
158.0490121128846
 20
319.4934611585074
 30
0.0
 10
157.5400799453692
 20
317.104978127694
 30
0.0
 10
157.1605065566118
 20
314.5243190838443
 30
0.0
 10
156.9568830187739
 20
311.8215461338772
 30
0.0
 10
156.9522357692211
 20
309.2005359356284
 30
0.0
 10
157.1285950500927
 20
306.6578649454369
 30
0.0
 10
157.4479662007387
 20
304.2891836384473
 30
0.0
 10
157.886006047732
 20
302.0500611626979
 30
0.0
 10
158.4039775957996
 20
299.9785807614152
 30
0.0
 10
158.9602552038661
 20
298.1144181500354
 30
0.0
 10
159.4891803487471
 20
296.5538695577119
 30
0.0
 10
159.9346942410834
 20
295.3504708375664
 30
0.0
 10
160.206921837286
 20
294.6543160601901
 30
0.0
 10
160.3228629300676
 20
294.364795775831
 30
0.0
 10
160.2953737104285
 20
294.4337981945764
 30
0.0
 10
160.2921439119176
 20
294.4419055149091
 30
0.0
  0
LINE
  5
BB
330
1F
100
AcDbEntity
  8
0
  6
Continuous
 62
     7
370
    25
100
AcDbLine
 10
80.3021197083
 20
392.4168687182
 30
0.0
 11
160.3021197083
 21
392.4168687182
 31
0.0
  0
LINE
  5
BC
330
1F
100
AcDbEntity
  8
0
  6
Continuous
 62
     7
370
    25
100
AcDbLine
 10
80.3021197083
 20
228.4168687182
 30
0.0
 11
160.3021197083
 21
228.4168687182
 31
0.0
  0
LINE
  5
BD
330
1F
100
AcDbEntity
  8
0
  6
Continuous
 62
     7
370
    25
100
AcDbLine
 10
212.3021197083
 20
326.4168687182
 30
0.0
 11
212.3021197083
 21
294.4168687182
 31
0.0
  0
LINE
  5
BE
330
1F
100
AcDbEntity
  8
0
  6
Continuous
 62
     7
370
    25
100
AcDbLine
 10
258.3952711026
 20
75.6394224182
 30
0.0
 11
422.3952711026
 21
75.6394224182
 31
0.0
  0
LINE
  5
BF
330
1F
100
AcDbEntity
  8
0
  6
Continuous
 62
     7
370
    25
100
AcDbLine
 10
259.3952711026
 20
155.6394224182
 30
0.0
 11
258.3952711026
 21
155.6394224182
 31
0.0
  0
LINE
  5
C0
330
1F
100
AcDbEntity
  8
0
  6
Continuous
 62
     7
370
    25
100
AcDbLine
 10
407.3952711026
 20
155.6394224182
 30
0.0
 11
273.3764361532
 21
155.6394224182
 31
0.0
  0
LINE
  5
C1
330
1F
100
AcDbEntity
  8
0
  6
Continuous
 62
     7
370
    25
100
AcDbLine
 10
422.3952711026
 20
155.6394224182
 30
0.0
 11
421.3764361532
 21
155.6394224182
 31
0.0
  0
LINE
  5
C2
330
1F
100
AcDbEntity
  8
0
  6
Continuous
 62
     7
370
    25
100
AcDbLine
 10
273.3952711026
 20
155.6361396584
 30
0.0
 11
273.3952711026
 21
186.1394224182
 31
0.0
  0
LINE
  5
C3
330
1F
100
AcDbEntity
  8
0
  6
Continuous
 62
     7
370
    25
100
AcDbLine
 10
259.3952711026
 20
186.1394224182
 30
0.0
 11
259.3952711026
 21
155.6394224182
 31
0.0
  0
LINE
  5
C4
330
1F
100
AcDbEntity
  8
0
  6
Continuous
 62
     7
370
    25
100
AcDbLine
 10
421.3952711026
 20
155.6361396584
 30
0.0
 11
421.3952711026
 21
186.1394224182
 31
0.0
  0
LINE
  5
C5
330
1F
100
AcDbEntity
  8
0
  6
Continuous
 62
     7
370
    25
100
AcDbLine
 10
407.3952711026
 20
186.1394224182
 30
0.0
 11
407.3952711026
 21
155.6394224182
 31
0.0
  0
LINE
  5
C6
330
1F
100
AcDbEntity
  8
0
  6
Continuous
 62
     7
370
    25
100
AcDbLine
 10
422.3952711026
 20
155.6394224182
 30
0.0
 11
422.3952711026
 21
75.6394224182
 31
0.0
  0
LINE
  5
C7
330
1F
100
AcDbEntity
  8
0
  6
Continuous
 62
     7
370
    25
100
AcDbLine
 10
258.3952711026
 20
155.6394224182
 30
0.0
 11
258.3952711026
 21
75.6394224182
 31
0.0
  0
SPLINE
  5
C8
330
1F
100
AcDbEntity
  8
0
  6
Continuous
 62
     7
370
    25
100
AcDbSpline
210
0.0
220
0.0
230
1.0
 70
     8
 71
     3
 72
    26
 73
    22
 74
     0
 42
0.00000001
 43
0.00000001
 40
0.0
 40
0.0
 40
0.0
 40
0.0
 40
0.014248464427562
 40
0.0682047854705337
 40
0.1202918722527087
 40
0.1738623030885345
 40
0.2264594863351623
 40
0.2805475599452508
 40
0.3337266108351132
 40
0.3884598919559001
 40
0.4413831263968191
 40
0.4958835309922001
 40
0.5480923534488614
 40
0.6018209588757727
 40
0.6539787920249518
 40
0.7076114857205099
 40
0.760451040223532
 40
0.8147999241716329
 40
0.8680009186374211
 40
0.9227729532218939
 40
1.0
 40
1.0
 40
1.0
 40
1.0
 10
421.3764361531919
 20
155.6361351360227
 30
0.0
 10
421.3819851727235
 20
155.6371034851215
 30
0.0
 10
421.4085473113068
 20
155.6417387946238
 30
0.0
 10
421.260254614434
 20
155.6157625337641
 30
0.0
 10
420.9286576237842
 20
155.5597044379361
 30
0.0
 10
420.4063570105899
 20
155.4767491026028
 30
0.0
 10
419.7149355689019
 20
155.3774134631782
 30
0.0
 10
418.8758581671547
 20
155.2727717941268
 30
0.0
 10
417.8984397759107
 20
155.1732198383539
 30
0.0
 10
416.8267125934963
 20
155.0918935671174
 30
0.0
 10
415.6755676170156
 20
155.037198042105
 30
0.0
 10
414.5045246521769
 20
155.0164048837537
 30
0.0
 10
413.3251852206122
 20
155.0310169764282
 30
0.0
 10
412.1929335600433
 20
155.0784984284578
 30
0.0
 10
411.1136122433895
 20
155.1541777999221
 30
0.0
 10
410.131301845651
 20
155.2487137728285
 30
0.0
 10
409.2559968614207
 20
155.3533782295472
 30
0.0
 10
408.5256915631526
 20
155.455459257764
 30
0.0
 10
407.9583461082623
 20
155.5437604043283
 30
0.0
 10
407.5015932222675
 20
155.6205287768236
 30
0.0
 10
407.4345154521649
 20
155.6324486232145
 30
0.0
 10
407.3952711026133
 20
155.6394224182237
 30
0.0
  0
SPLINE
  5
C9
330
1F
100
AcDbEntity
  8
0
  6
Continuous
 62
     7
370
    25
100
AcDbSpline
210
0.0
220
0.0
230
1.0
 70
     8
 71
     3
 72
    26
 73
    22
 74
     0
 42
0.00000001
 43
0.00000001
 40
0.0
 40
0.0
 40
0.0
 40
0.0
 40
0.0142484644275613
 40
0.068204785470533
 40
0.120291872252708
 40
0.1738623030885338
 40
0.2264594863351615
 40
0.2805475599452501
 40
0.3337266108351126
 40
0.3884598919558995
 40
0.4413831263968185
 40
0.4958835309921996
 40
0.5480923534488609
 40
0.6018209588757722
 40
0.6539787920249513
 40
0.7076114857205104
 40
0.7604510402235316
 40
0.8147999241716327
 40
0.8680009186374209
 40
0.9227729532218939
 40
1.0
 40
1.0
 40
1.0
 40
1.0
 10
273.3764361531919
 20
155.6361351360227
 30
0.0
 10
273.3819851727235
 20
155.6371034851215
 30
0.0
 10
273.4085473113068
 20
155.6417387946238
 30
0.0
 10
273.2602546144339
 20
155.6157625337641
 30
0.0
 10
272.9286576237841
 20
155.5597044379361
 30
0.0
 10
272.4063570105899
 20
155.4767491026028
 30
0.0
 10
271.7149355689019
 20
155.3774134631782
 30
0.0
 10
270.8758581671547
 20
155.2727717941268
 30
0.0
 10
269.8984397759107
 20
155.173219838354
 30
0.0
 10
268.8267125934962
 20
155.0918935671174
 30
0.0
 10
267.6755676170155
 20
155.0371980421051
 30
0.0
 10
266.5045246521769
 20
155.0164048837537
 30
0.0
 10
265.3251852206122
 20
155.0310169764282
 30
0.0
 10
264.1929335600432
 20
155.0784984284579
 30
0.0
 10
263.1136122433895
 20
155.1541777999221
 30
0.0
 10
262.1313018456509
 20
155.2487137728285
 30
0.0
 10
261.2559968614207
 20
155.3533782295472
 30
0.0
 10
260.5256915631526
 20
155.455459257764
 30
0.0
 10
259.9583461082623
 20
155.5437604043283
 30
0.0
 10
259.5015932222674
 20
155.6205287768236
 30
0.0
 10
259.4345154521649
 20
155.6324486232145
 30
0.0
 10
259.3952711026133
 20
155.6394224182237
 30
0.0
  0
LINE
  5
CA
330
1F
100
AcDbEntity
  8
0
  6
Continuous
 62
     7
370
    25
100
AcDbLine
 10
273.3952711026
 20
186.1394224182
 30
0.0
 11
259.3952711026
 21
186.1394224182
 31
0.0
  0
LINE
  5
CB
330
1F
100
AcDbEntity
  8
0
  6
Continuous
 62
     7
370
    25
100
AcDbLine
 10
421.3952711026
 20
186.1394224182
 30
0.0
 11
407.3952711026
 21
186.1394224182
 31
0.0
  0
LINE
  5
CC
330
1F
100
AcDbEntity
  8
0
  6
Continuous
 62
     7
370
    25
100
AcDbLine
 10
80.3021197083
 20
22.2339266919
 30
0.0
 11
80.3021197083
 21
-141.7660733081
 31
0.0
  0
LINE
  5
CD
330
1F
100
AcDbEntity
  8
0
  6
Continuous
 62
     7
370
    25
100
AcDbLine
 10
160.3021197083
 20
-43.7911101048
 30
0.0
 11
160.3021197083
 21
22.2339266919
 31
0.0
  0
LINE
  5
CE
330
1F
100
AcDbEntity
  8
0
  6
Continuous
 62
     7
370
    25
100
AcDbLine
 10
160.3021197083
 20
-141.7660733081
 30
0.0
 11
160.3021197083
 21
-75.7660733081
 31
0.0
  0
LINE
  5
CF
330
1F
100
AcDbEntity
  8
0
  6
Continuous
 62
     7
370
    25
100
AcDbLine
 10
160.3021197083
 20
-75.7660733081
 30
0.0
 11
212.3021197083
 21
-75.7660733081
 31
0.0
  0
LINE
  5
D0
330
1F
100
AcDbEntity
  8
0
  6
Continuous
 62
     7
370
    25
100
AcDbLine
 10
212.3021197083
 20
-43.7660733081
 30
0.0
 11
160.292176117
 21
-43.7660733081
 31
0.0
  0
CIRCLE
  5
D1
330
1F
100
AcDbEntity
  8
0
  6
Continuous
 62
     7
370
    25
100
AcDbCircle
 10
120.3021197083
 20
14.2339266919
 30
0.0
 40
7.00000000000002
  0
CIRCLE
  5
D2
330
1F
100
AcDbEntity
  8
0
  6
Continuous
 62
     7
370
    25
100
AcDbCircle
 10
120.3021197083
 20
14.2339266919
 30
0.0
 40
5.000000000000005
  0
CIRCLE
  5
D3
330
1F
100
AcDbEntity
  8
0
  6
Continuous
 62
     7
370
    25
100
AcDbCircle
 10
120.3021197083
 20
-133.7660733081
 30
0.0
 40
5.0
  0
CIRCLE
  5
D4
330
1F
100
AcDbEntity
  8
0
  6
Continuous
 62
     7
370
    25
100
AcDbCircle
 10
120.3021197083
 20
-133.7660733081
 30
0.0
 40
7.000000000000014
  0
LWPOLYLINE
  5
D5
330
1F
100
AcDbEntity
  8
0
  6
Continuous
 62
     7
370
    25
100
AcDbPolyline
 90
       22
 70
   128
 43
0.0
 10
160.2921439119
 20
-43.7911101048
 10
160.2347875915
 20
-43.9351553224
 10
160.0219228497
 20
-44.4800417239
 10
159.6727245375
 20
-45.411822209
 10
159.2226215675
 20
-46.6968168271
 10
158.7014821038
 20
-48.3419307853
 10
158.1503097288
 20
-50.3594007918
 10
157.6347020057
 20
-52.714711667
 10
157.2409638271
 20
-55.2407882531
 10
157.0049126602
 20
-58.0068091236
 10
156.9710865685
 20
-60.5490998677
 10
157.1182488448
 20
-63.1465118291
 10
157.4051308508
 20
-65.4786415433
 10
157.8155790102
 20
-67.7196655025
 10
158.3159811761
 20
-69.8186184432
 10
158.8572682195
 20
-71.7033877766
 10
159.390183449
 20
-73.3261886097
 10
159.8497461531
 20
-74.5989677464
 10
160.1538732511
 20
-75.3917656268
 10
160.296292216
 20
-75.7514990007
 10
160.3021197083
 20
-75.7660733081
 10
160.3021197083
 20
-75.7660733081
  0
LINE
  5
D6
330
1F
100
AcDbEntity
  8
0
  6
Continuous
 62
     7
370
    25
100
AcDbLine
 10
160.3021197083
 20
-141.7660733081
 30
0.0
 11
80.3021197083
 21
-141.7660733081
 31
0.0
  0
LINE
  5
D7
330
1F
100
AcDbEntity
  8
0
  6
Continuous
 62
     7
370
    25
100
AcDbLine
 10
160.3021197083
 20
22.2339266919
 30
0.0
 11
80.3021197083
 21
22.2339266919
 31
0.0
  0
LINE
  5
D8
330
1F
100
AcDbEntity
  8
0
  6
Continuous
 62
     7
370
    25
100
AcDbLine
 10
212.3021197083
 20
-43.7660733081
 30
0.0
 11
212.3021197083
 21
-75.7660733081
 31
0.0
  0
INSERT
  5
E4
330
1F
100
AcDbEntity
  8
FORMAT
 62
     7
100
AcDbBlockReference
  2
SW_CENTERMARKSYMBOL_2
 10
120.3021197083
 20
-133.7660733081
 30
0.0
  0
INSERT
  5
F0
330
1F
100
AcDbEntity
  8
FORMAT
 62
     7
100
AcDbBlockReference
  2
SW_CENTERMARKSYMBOL_3
 10
120.3021197083
 20
14.2339266919
 30
0.0
  0
LINE
  5
F1
330
1F
100
AcDbEntity
  8
0
  6
Continuous
 62
     7
370
    25
100
AcDbLine
 10
413.8174767409
 20
-63.328359796
 30
0.0
 11
391.8408973731
 21
-50.6415505733
 31
0.0
  0
LINE
  5
F2
330
1F
100
AcDbEntity
  8
0
  6
Continuous
 62
     7
370
    25
100
AcDbLine
 10
359.8382966061
 20
-32.1668423957
 30
0.0
 11
297.8519646263
 21
3.6171053735
 31
0.0
  0
LINE
  5
F3
330
1F
100
AcDbEntity
  8
0
  6
Continuous
 62
     7
370
    25
100
AcDbLine
 10
257.8552153209
 20
-65.666803617
 30
0.0
 11
373.8207274355
 21
-132.6122687864
 31
0.0
  0
LINE
  5
F4
330
1F
100
AcDbEntity
  8
0
  6
Continuous
 62
     7
370
    25
100
AcDbLine
 10
370.9639309435
 20
-62.6935667588
 30
0.0
 11
408.8895197611
 21
-40.7995903607
 31
0.0
  0
LINE
  5
F5
330
1F
100
AcDbEntity
  8
0
  6
Continuous
 62
     7
370
    25
100
AcDbLine
 10
392.890820039
 20
-13.0860267645
 30
0.0
 11
354.9660265465
 21
-34.9795440311
 31
0.0
  0
LINE
  5
F6
330
1F
100
AcDbEntity
  8
0
  6
Continuous
 62
     7
370
    25
100
AcDbLine
 10
290.5104442231
 20
5.4907767709
 30
0.0
 11
290.5104442231
 21
23.2756456689
 31
0.0
  0
LINE
  5
F7
330
1F
100
AcDbEntity
  8
0
  6
Continuous
 62
     7
370
    25
100
AcDbLine
 10
276.5104442231
 20
23.2756456689
 30
0.0
 11
276.5104442231
 21
0.8245542139
 31
0.0
  0
LINE
  5
F8
330
1F
100
AcDbEntity
  8
0
  6
Continuous
 62
     7
370
    25
100
AcDbLine
 10
395.1622478387
 20
-52.5589253846
 30
0.0
 11
395.1622478387
 21
-48.724175762
 31
0.0
  0
SPLINE
  5
F9
330
1F
100
AcDbEntity
  8
0
  6
Continuous
 62
     7
370
    25
100
AcDbSpline
210
0.0
220
0.0
230
1.0
 70
     8
 71
     3
 72
    22
 73
    18
 74
     0
 42
0.00000001
 43
0.00000001
 40
0.0
 40
0.0
 40
0.0
 40
0.0
 40
0.0678436144050944
 40
0.1357002170707416
 40
0.203401279412726
 40
0.2711220871057182
 40
0.3417457046100617
 40
0.4123693860485255
 40
0.4861512328375096
 40
0.5598998312741198
 40
0.6302893892002324
 40
0.7006672247476842
 40
0.7661344006212685
 40
0.8316214264664277
 40
0.8984464951691822
 40
0.965288015093391
 40
1.0
 40
1.0
 40
1.0
 40
1.0
 10
352.8069087793592
 20
-41.63815457542874
 30
0.0
 10
352.8242048901357
 20
-42.3654800566742
 30
0.0
 10
352.8588004229272
 20
-43.82027026134642
 30
0.0
 10
353.1336251634144
 20
-46.23119542957794
 30
0.0
 10
353.5754281367404
 20
-48.71790775085649
 30
0.0
 10
354.2073505816778
 20
-51.25957722425041
 30
0.0
 10
355.0454555308536
 20
-53.78016462320347
 30
0.0
 10
356.1198682515011
 20
-56.24167698503739
 30
0.0
 10
357.4485143311532
 20
-58.5167197813542
 30
0.0
 10
359.0113649711756
 20
-60.48855648987105
 30
0.0
 10
360.7747391509239
 20
-62.04053855764437
 30
0.0
 10
362.6304138703671
 20
-63.12825401834871
 30
0.0
 10
364.543757157075
 20
-63.75018142157757
 30
0.0
 10
366.4534354057592
 20
-63.96619930988956
 30
0.0
 10
368.3287127746465
 20
-63.75397638070474
 30
0.0
 10
369.8625602289015
 20
-63.31815443895025
 30
0.0
 10
370.6620857913435
 20
-62.8159748393275
 30
0.0
 10
370.9353714775655
 20
-62.64432492225616
 30
0.0
  0
SPLINE
  5
FA
330
1F
100
AcDbEntity
  8
0
  6
Continuous
 62
     7
370
    25
100
AcDbSpline
210
0.0
220
0.0
230
1.0
 70
     8
 71
     3
 72
    13
 73
     9
 74
     0
 42
0.00000001
 43
0.00000001
 40
0.0
 40
0.0
 40
0.0
 40
0.0
 40
0.0731385115032878
 40
0.2936293318063561
 40
0.5140500226024317
 40
0.7301298172981173
 40
0.9461483281866507
 40
1.0
 40
1.0
 40
1.0
 40
1.0
 10
354.9892491035199
 20
-35.02108763503576
 30
0.0
 10
354.8761844168992
 20
-35.07162664315692
 30
0.0
 10
354.422263388142
 20
-35.27452570248638
 30
0.0
 10
353.8516930329362
 20
-36.03884757705406
 30
0.0
 10
353.2778839346612
 20
-37.31946689080186
 30
0.0
 10
352.9319702203457
 20
-39.01969495228779
 30
0.0
 10
352.8146145720546
 20
-40.53105215358818
 30
0.0
 10
352.8081906508594
 20
-41.45398623630316
 30
0.0
 10
352.8069087793592
 20
-41.63815457542874
 30
0.0
  0
LWPOLYLINE
  5
FB
330
1F
100
AcDbEntity
  8
0
  6
Continuous
 62
     7
370
    25
100
AcDbPolyline
 90
       99
 70
   128
 43
0.0
 10
306.137861221
 20
-14.6966868853
 10
306.0797481523
 20
-12.6375968682
 10
305.9056477451
 20
-10.6540640146
 10
305.6162754154
 20
-8.7542390866
 10
305.2128202561
 20
-6.9459288722
 10
304.696940151
 20
-5.236564106
 10
304.0707549622
 20
-3.6331689346
 10
303.3368378189
 20
-2.1423320525
 10
302.498204544
 20
-0.7701796284
 10
301.5583012616
 20
0.4776498692
 10
300.5209902359
 20
1.5960288412
 10
299.3905340004
 20
2.5803616285
 10
298.1715778422
 20
3.4266033965
 10
296.8691307136
 20
4.1312767563
 10
295.4885446494
 20
4.6914860539
 10
294.0354927737
 20
5.1049292691
 10
292.5159459883
 20
5.3699074751
 10
290.9361484371
 20
5.4853318196
 10
289.3025918469
 20
5.4507279992
 10
287.6219888522
 20
5.2662382084
 10
285.9012454112
 20
4.9326205554
 10
284.1474324278
 20
4.4512459466
 10
282.3677566958
 20
3.8240924536
 10
280.5695312844
 20
3.0537371846
 10
278.7601454875
 20
2.1433456946
 10
276.9470344596
 20
1.0966589775
 10
275.1376486628
 20
-0.0820219063
 10
273.3394232514
 20
-1.3878535044
 10
271.5597475193
 20
-2.8154698747
 10
269.8059345359
 20
-4.3590046351
 10
268.0851910949
 20
-6.0121150703
 10
266.4045881003
 20
-7.768008195
 10
264.7710315101
 20
-9.6194686676
 10
263.1912339588
 20
-11.55888844
 10
261.6716871735
 20
-13.5782980202
 10
260.2186352978
 20
-15.6693992212
 10
258.8380492335
 20
-17.8235992595
 10
257.535602105
 20
-20.0320460652
 10
256.3166459468
 20
-22.2856646566
 10
255.1861897113
 20
-24.5751944315
 10
254.1488786856
 20
-26.891227221
 10
253.2089754032
 20
-29.2242459495
 10
252.3703421283
 20
-31.5646637427
 10
251.636424985
 20
-33.9028633218
 10
251.0102397962
 20
-36.2292365233
 10
250.4943596911
 20
-38.5342237806
 10
250.0909045318
 20
-40.8083534066
 10
249.8015322021
 20
-43.042280515
 10
249.6274317949
 20
-45.2268254201
 10
249.5693187261
 20
-47.3530113582
 10
249.6274317949
 20
-49.4121013753
 10
249.8015322021
 20
-51.3956342289
 10
250.0909045318
 20
-53.2954591569
 10
250.4943596911
 20
-55.1037693713
 10
251.0102397962
 20
-56.8131341374
 10
251.636424985
 20
-58.4165293089
 10
252.3703421283
 20
-59.907366191
 10
253.2089754032
 20
-61.2795186151
 10
254.1488786856
 20
-62.5273481127
 10
255.1861897113
 20
-63.6457270847
 10
256.3166459468
 20
-64.630059872
 10
257.535602105
 20
-65.47630164
 10
258.8380492335
 20
-66.1809749998
 10
260.2186352978
 20
-66.7411842973
 10
261.6716871735
 20
-67.1546275126
 10
263.1912339588
 20
-67.4196057186
 10
264.7710315101
 20
-67.5350300631
 10
266.4045881003
 20
-67.5004262427
 10
268.0851910949
 20
-67.3159364519
 10
269.8059345359
 20
-66.9823187989
 10
271.5597475193
 20
-66.5009441901
 10
273.3394232514
 20
-65.8737906971
 10
275.1376486628
 20
-65.1034354281
 10
276.9470344596
 20
-64.1930439381
 10
278.7601454875
 20
-63.146357221
 10
280.5695312844
 20
-61.9676763371
 10
282.3677566958
 20
-60.661844739
 10
284.1474324278
 20
-59.2342283688
 10
285.9012454112
 20
-57.6906936084
 10
287.6219888522
 20
-56.0375831731
 10
289.3025918469
 20
-54.2816900485
 10
290.9361484371
 20
-52.4302295758
 10
292.5159459883
 20
-50.4908098035
 10
294.0354927737
 20
-48.4714002233
 10
295.4885446494
 20
-46.3802990223
 10
296.8691307136
 20
-44.226098984
 10
298.1715778422
 20
-42.0176521783
 10
299.3905340004
 20
-39.7640335869
 10
300.5209902359
 20
-37.474503812
 10
301.5583012616
 20
-35.1584710225
 10
302.498204544
 20
-32.8254522939
 10
303.3368378189
 20
-30.4850345008
 10
304.0707549622
 20
-28.1468349216
 10
304.696940151
 20
-25.8204617202
 10
305.2128202561
 20
-23.5154744629
 10
305.6162754154
 20
-21.2413448369
 10
305.9056477451
 20
-19.0074177285
 10
306.0797481523
 20
-16.8228728234
 10
306.137861221
 20
-14.6966868853
  0
LWPOLYLINE
  5
FC
330
1F
100
AcDbEntity
  8
0
  6
Continuous
 62
     7
370
    25
100
AcDbPolyline
 90
       14
 70
   128
 43
0.0
 10
422.1033733356
 20
-81.6421520547
 10
422.0452602669
 20
-79.5830620376
 10
421.8711598597
 20
-77.5995291841
 10
421.5817875299
 20
-75.699704256
 10
421.1783323707
 20
-73.8913940416
 10
420.6624522656
 20
-72.1820292755
 10
420.0362670768
 20
-70.578634104
 10
419.3023499334
 20
-69.087797222
 10
418.4637166586
 20
-67.7156447978
 10
417.5238133762
 20
-66.4678153002
 10
416.4865023505
 20
-65.3494363282
 10
415.356046115
 20
-64.365103541
 10
414.1370899568
 20
-63.518861773
 10
413.8174767409
 20
-63.328359796
  0
LWPOLYLINE
  5
FD
330
1F
100
AcDbEntity
  8
0
  6
Continuous
 62
     7
370
    25
100
AcDbPolyline
 90
       38
 70
   128
 43
0.0
 10
373.8207274355
 20
-132.6122687864
 10
374.8035613481
 20
-133.1264401692
 10
376.1841474124
 20
-133.6866494668
 10
377.6371992881
 20
-134.100092682
 10
379.1567460734
 20
-134.365070888
 10
380.7365436247
 20
-134.4804952325
 10
382.3701002149
 20
-134.4458914121
 10
384.0507032095
 20
-134.2614016214
 10
385.7714466505
 20
-133.9277839683
 10
387.5252596339
 20
-133.4464093596
 10
389.304935366
 20
-132.8192558665
 10
391.1031607774
 20
-132.0489005975
 10
392.9125465742
 20
-131.1385091075
 10
394.7256576021
 20
-130.0918223905
 10
396.535043399
 20
-128.9131415066
 10
398.3332688104
 20
-127.6073099085
 10
400.1129445424
 20
-126.1796935383
 10
401.8667575258
 20
-124.6361587778
 10
403.5875009668
 20
-122.9830483426
 10
405.2681039615
 20
-121.2271552179
 10
406.9016605517
 20
-119.3756947453
 10
408.4814581029
 20
-117.436274973
 10
410.0010048883
 20
-115.4168653927
 10
411.454056764
 20
-113.3257641918
 10
412.8346428282
 20
-111.1715641534
 10
414.1370899568
 20
-108.9631173477
 10
415.356046115
 20
-106.7094987563
 10
416.4865023505
 20
-104.4199689814
 10
417.5238133762
 20
-102.1039361919
 10
418.4637166586
 20
-99.7709174634
 10
419.3023499334
 20
-97.4304996702
 10
420.0362670768
 20
-95.0923000911
 10
420.6624522656
 20
-92.7659268896
 10
421.1783323707
 20
-90.4609396324
 10
421.5817875299
 20
-88.1868100063
 10
421.8711598597
 20
-85.9528828979
 10
422.0452602669
 20
-83.7683379929
 10
422.1033733356
 20
-81.6421520547
  0
LWPOLYLINE
  5
FE
330
1F
100
AcDbEntity
  8
0
  6
Continuous
 62
     7
370
    25
100
AcDbPolyline
 90
       88
 70
   128
 43
0.0
 10
300.127453581
 20
-18.1664213605
 10
300.0693907753
 20
-16.3439681008
 10
299.895505071
 20
-14.598054157
 10
299.6067030276
 20
-12.9377819159
 10
299.2044903252
 20
-11.3718072683
 10
298.6909639146
 20
-9.9082944808
 10
298.0688010847
 20
-8.5548736315
 10
297.3412455045
 20
-7.31860083
 10
296.5120903118
 20
-6.2059214303
 10
295.5856583379
 20
-5.2226364275
 10
294.5667795701
 20
-4.3738722143
 10
293.4607659706
 20
-3.6640538543
 10
292.2733837821
 20
-3.0968820119
 10
291.0108234656
 20
-2.6753136583
 10
289.6796674259
 20
-2.4015466557
 10
288.2868556943
 20
-2.2770082986
 10
286.8396497462
 20
-2.3023478723
 10
285.3455946433
 20
-2.477433268
 10
283.8124796971
 20
-2.8013516714
 10
282.2482978591
 20
-3.272414322
 10
280.6612040491
 20
-3.8881653173
 10
279.0594726393
 20
-4.6453944167
 10
277.4514543156
 20
-5.5401537783
 10
275.8455325411
 20
-6.5677785411
 10
274.2500798482
 20
-7.7229111454
 10
272.6734141886
 20
-8.9995292647
 10
271.1237555669
 20
-10.3909772032
 10
269.6091831857
 20
-11.8900005956
 10
268.1375933239
 20
-13.4887842282
 10
266.7166581699
 20
-15.1789927833
 10
265.3537858215
 20
-16.9518142961
 10
264.0560816641
 20
-18.7980060962
 10
262.8303113262
 20
-20.7079429943
 10
261.6828654069
 20
-22.6716674639
 10
260.6197261579
 20
-24.6789415549
 10
259.6464362949
 20
-26.7193002695
 10
258.7680701006
 20
-28.7821061222
 10
257.9892069697
 20
-30.8566045984
 10
257.3139075338
 20
-32.9319802237
 10
256.7456924916
 20
-34.9974129505
 10
256.2875242531
 20
-37.0421345689
 10
255.9417914954
 20
-39.0554848472
 10
255.710296709
 20
-41.0269671093
 10
255.5942468006
 20
-42.9463029596
 10
255.5942468006
 20
-44.8034858696
 10
255.710296709
 20
-46.5888333476
 10
255.9417914954
 20
-48.2930374186
 10
256.2875242531
 20
-49.9072131515
 10
256.7456924916
 20
-51.4229449817
 10
257.3139075338
 20
-52.832330585
 10
257.9892069697
 20
-54.1280220777
 10
258.7680701006
 20
-55.3032643241
 10
259.6464362949
 20
-56.3519301555
 10
260.6197261579
 20
-57.2685523137
 10
261.6828654069
 20
-58.0483519553
 10
262.8303113262
 20
-58.6872635659
 10
264.0560816641
 20
-59.1819561563
 10
265.3537858215
 20
-59.5298506284
 10
266.7166581699
 20
-59.7291332214
 10
268.1375933239
 20
-59.7787649683
 10
269.6091831857
 20
-59.678487112
 10
271.1237555669
 20
-59.428822455
 10
272.6734141886
 20
-59.031072633
 10
274.2500798482
 20
-58.4873113295
 10
275.8455325411
 20
-57.8003734642
 10
277.4514543156
 20
-56.973840413
 10
279.0594726393
 20
-56.0120213365
 10
280.6612040491
 20
-54.9199307141
 10
282.2482978591
 20
-53.7032622005
 10
283.8124796971
 20
-52.368358942
 10
285.3455946433
 20
-50.9221805061
 10
286.8396497462
 20
-49.3722665976
 10
288.2868556943
 20
-47.7266977499
 10
289.6796674259
 20
-45.9940531969
 10
291.0108234656
 20
-44.1833661453
 10
292.2733837821
 20
-42.3040766787
 10
293.4607659706
 20
-40.3659825423
 10
294.5667795701
 20
-38.3791880615
 10
295.5856583379
 20
-36.3540514629
 10
296.5120903118
 20
-34.3011308708
 10
297.3412455045
 20
-32.2311292627
 10
298.0688010847
 20
-30.1548386686
 10
298.6909639146
 20
-28.0830839061
 10
299.2044903252
 20
-26.0266661453
 10
299.6067030276
 20
-23.9963065961
 10
299.895505071
 20
-22.0025906133
 10
300.0693907753
 20
-20.0559125087
 10
300.127453581
 20
-18.1664213605
  0
LWPOLYLINE
  5
FF
330
1F
100
AcDbEntity
  8
0
  6
Continuous
 62
     7
370
    25
100
AcDbPolyline
 90
       57
 70
   128
 43
0.0
 10
410.0825580555
 20
-32.2494612895
 10
410.0247582482
 20
-31.0275878361
 10
409.8520856924
 20
-29.7543459133
 10
409.5667118457
 20
-28.4457472771
 10
409.1722254498
 20
-27.1182483144
 10
408.6735873999
 20
-25.7885430952
 10
408.077068359
 20
-24.4733534338
 10
407.3901699
 20
-23.1892186036
 10
406.6215301697
 20
-21.9522873449
 10
405.7808152585
 20
-20.7781147862
 10
404.8785976443
 20
-19.6814668285
 10
403.9262232371
 20
-18.6761344562
 10
402.9356686977
 20
-17.7747603073
 10
401.919390824
 20
-16.9886796846
 10
400.8901699
 20
-16.3277780081
 10
399.8609489761
 20
-15.8003664998
 10
398.8446711024
 20
-15.4130776654
 10
397.8541165629
 20
-15.1707818868
 10
396.9017421557
 20
-15.0765261738
 10
395.9995245416
 20
-15.131495847
 10
395.1588096304
 20
-15.3349996305
 10
394.3901699
 20
-15.6844783465
 10
393.7032714411
 20
-16.1755370971
 10
393.1067524001
 20
-16.8020005337
 10
392.6081143503
 20
-17.5559905151
 10
392.2136279544
 20
-18.4280251798
 10
391.9282541077
 20
-19.407138186
 10
391.7555815519
 20
-20.4810166194
 10
391.6977817446
 20
-21.6361558358
 10
391.7555815519
 20
-22.8580292891
 10
391.9282541077
 20
-24.1312712119
 10
392.2136279544
 20
-25.4398698482
 10
392.6081143503
 20
-26.7673688108
 10
393.1067524001
 20
-28.0970740301
 10
393.7032714411
 20
-29.4122636914
 10
394.3901699
 20
-30.6963985217
 10
395.1588096304
 20
-31.9333297803
 10
395.9995245416
 20
-33.1075023391
 10
396.9017421557
 20
-34.2041502967
 10
397.8541165629
 20
-35.209482669
 10
398.8446711024
 20
-36.1108568179
 10
399.8609489761
 20
-36.8969374406
 10
400.8901699
 20
-37.5578391171
 10
401.919390824
 20
-38.0852506255
 10
402.9356686977
 20
-38.4725394598
 10
403.9262232371
 20
-38.7148352385
 10
404.8785976443
 20
-38.8090909514
 10
405.7808152585
 20
-38.7541212783
 10
406.6215301697
 20
-38.5506174947
 10
407.3901699
 20
-38.2011387788
 10
408.077068359
 20
-37.7100800282
 10
408.6735873999
 20
-37.0836165915
 10
409.1722254498
 20
-36.3296266101
 10
409.5667118457
 20
-35.4575919454
 10
409.8520856924
 20
-34.4784789392
 10
410.0247582482
 20
-33.4046005058
 10
410.0825580555
 20
-32.2494612895
  0
LWPOLYLINE
  5
100
330
1F
100
AcDbEntity
  8
0
  6
Continuous
 62
     7
370
    25
100
AcDbPolyline
 90
       63
 70
   128
 43
0.0
 10
412.203878399
 20
-33.4740734572
 10
412.1458314195
 20
-32.1188346288
 10
411.9722861214
 20
-30.7104827687
 10
411.6850233144
 20
-29.2634694728
 10
411.2869907036
 20
-27.7926430556
 10
410.7822726422
 20
-26.3130961864
 10
410.1760482205
 20
-24.8400110184
 10
409.4745381214
 20
-23.3885033987
 10
408.6849407879
 20
-21.9734677598
 10
407.8153585571
 20
-20.6094242821
 10
406.8747145193
 20
-19.3103698975
 10
405.8726609554
 20
-18.089634662
 10
404.8194802909
 20
-16.9597449709
 10
403.7259795846
 20
-15.9322950216
 10
402.6033796334
 20
-15.0178278408
 10
401.463199832
 20
-14.2257270992
 10
400.3171399681
 20
-13.5641208225
 10
399.1769601667
 20
-13.0397979862
 10
398.0543602155
 20
-12.6581388522
 10
396.9608595092
 20
-12.4230597597
 10
395.9076788447
 20
-12.3369729383
 10
394.9056252808
 20
-12.4007617552
 10
393.964981243
 20
-12.6137716509
 10
393.0953990122
 20
-12.9738168556
 10
392.3058016787
 20
-13.4772028183
 10
391.6042915796
 20
-14.1187641178
 10
390.9980671579
 20
-14.891917467
 10
390.4933490965
 20
-15.7887292663
 10
390.0953164857
 20
-16.7999970131
 10
389.8080536787
 20
-17.9153437317
 10
389.6345083806
 20
-19.1233244557
 10
389.5764614011
 20
-20.411543668
 10
389.6345083806
 20
-21.7667824964
 10
389.8080536787
 20
-23.1751343565
 10
390.0953164857
 20
-24.6221476525
 10
390.4933490965
 20
-26.0929740697
 10
390.9980671579
 20
-27.5725209388
 10
391.6042915796
 20
-29.0456061068
 10
392.3058016787
 20
-30.4971137265
 10
393.0953990122
 20
-31.9121493655
 10
393.964981243
 20
-33.2761928432
 10
394.9056252808
 20
-34.5752472277
 10
395.9076788447
 20
-35.7959824633
 10
396.9608595092
 20
-36.9258721543
 10
398.0543602155
 20
-37.9533221037
 10
399.1769601667
 20
-38.8677892845
 10
400.3171399681
 20
-39.659890026
 10
401.463199832
 20
-40.3214963027
 10
402.6033796334
 20
-40.845819139
 10
403.7259795846
 20
-41.227478273
 10
404.8194802909
 20
-41.4625573655
 10
405.8726609554
 20
-41.548644187
 10
406.8747145193
 20
-41.48485537
 10
407.8153585571
 20
-41.2718454743
 10
408.6849407879
 20
-40.9118002696
 10
409.4745381214
 20
-40.408414307
 10
410.1760482205
 20
-39.7668530075
 10
410.7822726422
 20
-38.9936996583
 10
411.2869907036
 20
-38.096887859
 10
411.6850233144
 20
-37.0856201122
 10
411.9722861214
 20
-35.9702733935
 10
412.1458314195
 20
-34.7622926695
 10
412.203878399
 20
-33.4740734572
  0
LWPOLYLINE
  5
101
330
1F
100
AcDbEntity
  8
0
  6
Continuous
 62
     7
370
    25
100
AcDbPolyline
 90
       22
 70
   128
 43
0.0
 10
290.5104442231
 20
23.2756456689
 10
290.4476057924
 20
23.8158923979
 10
290.2234504751
 20
24.4208813443
 10
289.841947981
 20
24.9990269372
 10
289.3120404052
 20
25.5367779337
 10
288.646148332
 20
26.0215299065
 10
287.8598797074
 20
26.44192068
 10
286.9716640014
 20
26.7880966509
 10
286.0023202374
 20
27.0519437478
 10
284.9745690116
 20
27.2272776183
 10
283.9124999417
 20
27.3099885852
 10
282.8410070266
 20
27.2981379735
 10
281.7852051519
 20
27.1920035515
 10
280.7698414188
 20
26.99407302
 10
279.8187150927
 20
26.7089857031
 10
278.9541197684
 20
26.3434238057
 10
278.1963208275
 20
25.9059557889
 10
277.563080435
 20
25.4068355323
 10
277.0692412089
 20
24.8577619915
 10
276.7263783222
 20
24.2716049851
 10
276.5425281903
 20
23.6621035365
 10
276.5104442231
 20
23.2756456689
  0
ENDSEC
  0
SECTION
  2
OBJECTS
  0
DICTIONARY
  5
C
330
0
100
AcDbDictionary
281
     1
  3
ACAD_GROUP
350
D
  3
ACAD_LAYOUT
350
1A
  3
ACAD_MLINESTYLE
350
17
  3
ACAD_PLOTSETTINGS
350
19
  3
ACAD_PLOTSTYLENAME
350
E
  3
ACAD_SCALELIST
350
47
  3
DWGPROPS
350
102
  0
DICTIONARY
  5
D
102
{ACAD_REACTORS
330
C
102
}
330
C
100
AcDbDictionary
281
     1
  0
DICTIONARY
  5
1A
102
{ACAD_REACTORS
330
C
102
}
330
C
100
AcDbDictionary
281
     1
  3
Layout1
350
1E
  3
Layout2
350
26
  3
Model
350
22
  0
DICTIONARY
  5
17
102
{ACAD_REACTORS
330
C
102
}
330
C
100
AcDbDictionary
281
     1
  3
Standard
350
18
  0
DICTIONARY
  5
19
102
{ACAD_REACTORS
330
C
102
}
330
C
100
AcDbDictionary
281
     1
  0
ACDBDICTIONARYWDFLT
  5
E
102
{ACAD_REACTORS
330
C
102
}
330
C
100
AcDbDictionary
281
     1
  3
Normal
350
F
100
AcDbDictionaryWithDefault
340
F
  0
DICTIONARY
  5
47
102
{ACAD_REACTORS
330
C
102
}
330
C
100
AcDbDictionary
281
     1
  3
A0
350
48
  3
A1
350
49
  3
A2
350
4A
  3
A3
350
4B
  3
A4
350
4C
  3
A5
350
4D
  3
A6
350
4E
  3
A7
350
4F
  3
A8
350
50
  3
A9
350
51
  3
B0
350
52
  3
B1
350
53
  3
B2
350
54
  3
B3
350
55
  3
B4
350
56
  3
B5
350
57
  3
B6
350
58
  3
B7
350
59
  3
B8
350
5A
  3
B9
350
5B
  3
C0
350
5C
  3
C1
350
5D
  3
C2
350
5E
  3
C3
350
5F
  3
C4
350
60
  3
C5
350
61
  3
C6
350
62
  3
C7
350
63
  3
C8
350
64
  3
C9
350
65
  3
D0
350
66
  3
D1
350
67
  3
D2
350
68
  0
XRECORD
  5
102
102
{ACAD_REACTORS
330
C
102
}
330
C
100
AcDbXrecord
280
     1
  1
DWGPROPS COOKIE
  2

  3

  4

  6

  7

  8
b.kav
  9

300
=
301
=
302
=
303
=
304
=
305
=
306
=
307
=
308
=
309
=
 40
0.0
 41
2459741.481085417
 42
2459741.481085671
  1

 90
        0
  0
LAYOUT
  5
1E
102
{ACAD_REACTORS
330
1A
102
}
330
1A
100
AcDbPlotSettings
  1

  2
none_device
  4

  6

 40
0.0
 41
0.0
 42
0.0
 43
0.0
 44
0.0
 45
0.0
 46
0.0
 47
0.0
 48
0.0
 49
0.0
140
0.0
141
0.0
142
1.0
143
1.0
 70
   688
 72
     1
 73
     0
 74
     5
  7

 75
    16
147
1.0
148
0.0
149
0.0
100
AcDbLayout
  1
Layout1
 70
     1
 71
     1
 10
0.0
 20
0.0
 11
420.0
 21
297.0
 12
0.0
 22
0.0
 32
0.0
 14
1.0000000000E+20
 24
1.0000000000E+20
 34
1.0000000000E+20
 15
-1.0000000000E+20
 25
-1.0000000000E+20
 35
-1.0000000000E+20
146
0.0
 13
0.0
 23
0.0
 33
0.0
 16
1.0
 26
0.0
 36
0.0
 17
0.0
 27
1.0
 37
0.0
 76
     0
330
1B
  0
LAYOUT
  5
26
102
{ACAD_REACTORS
330
1A
102
}
330
1A
100
AcDbPlotSettings
  1

  2
none_device
  4

  6

 40
0.0
 41
0.0
 42
0.0
 43
0.0
 44
0.0
 45
0.0
 46
0.0
 47
0.0
 48
0.0
 49
0.0
140
0.0
141
0.0
142
1.0
143
1.0
 70
   688
 72
     1
 73
     0
 74
     5
  7

 75
    16
147
1.0
148
0.0
149
0.0
100
AcDbLayout
  1
Layout2
 70
     1
 71
     2
 10
0.0
 20
0.0
 11
0.0
 21
0.0
 12
0.0
 22
0.0
 32
0.0
 14
0.0
 24
0.0
 34
0.0
 15
0.0
 25
0.0
 35
0.0
146
0.0
 13
0.0
 23
0.0
 33
0.0
 16
1.0
 26
0.0
 36
0.0
 17
0.0
 27
1.0
 37
0.0
 76
     0
330
23
  0
LAYOUT
  5
22
102
{ACAD_REACTORS
330
1A
102
}
330
1A
100
AcDbPlotSettings
  1

  2
none_device
  4
Letter_(8.50_x_11.00_Inches)
  6

 40
6.35
 41
6.35
 42
6.35000508
 43
6.35000508
 44
215.9
 45
279.4
 46
0.0
 47
0.0
 48
0.0
 49
0.0
140
0.0
141
0.0
142
1.0
143
1.0
 70
  1712
 72
     1
 73
     0
 74
     0
  7

 75
     0
147
1.0
148
0.0
149
0.0
100
AcDbLayout
  1
Model
 70
     1
 71
     0
 10
0.0
 20
0.0
 11
279.4
 21
215.9
 12
0.0
 22
0.0
 32
0.0
 14
0.0
 24
0.0
 34
0.0
 15
279.4
 25
215.9
 35
0.0
146
0.0
 13
0.0
 23
0.0
 33
0.0
 16
1.0
 26
0.0
 36
0.0
 17
0.0
 27
1.0
 37
0.0
 76
     0
330
1F
331
29
  0
MLINESTYLE
  5
18
102
{ACAD_REACTORS
330
17
102
}
330
17
100
AcDbMlineStyle
  2
Standard
 70
     0
  3

 62
   256
 51
90.0
 52
90.0
 71
     2
 49
0.5
 62
   256
  6
BYLAYER
 49
-0.5
 62
   256
  6
BYLAYER
  0
ACDBPLACEHOLDER
  5
F
102
{ACAD_REACTORS
330
E
102
}
330
E
  0
SCALE
  5
48
102
{ACAD_REACTORS
330
47
102
}
330
47
100
AcDbScale
 70
     0
300
1:1
140
1.0
141
1.0
290
     1
  0
SCALE
  5
49
102
{ACAD_REACTORS
330
47
102
}
330
47
100
AcDbScale
 70
     0
300
1:2
140
1.0
141
2.0
290
     0
  0
SCALE
  5
4A
102
{ACAD_REACTORS
330
47
102
}
330
47
100
AcDbScale
 70
     0
300
1:4
140
1.0
141
4.0
290
     0
  0
SCALE
  5
4B
102
{ACAD_REACTORS
330
47
102
}
330
47
100
AcDbScale
 70
     0
300
1:5
140
1.0
141
5.0
290
     0
  0
SCALE
  5
4C
102
{ACAD_REACTORS
330
47
102
}
330
47
100
AcDbScale
 70
     0
300
1:8
140
1.0
141
8.0
290
     0
  0
SCALE
  5
4D
102
{ACAD_REACTORS
330
47
102
}
330
47
100
AcDbScale
 70
     0
300
1:10
140
1.0
141
10.0
290
     0
  0
SCALE
  5
4E
102
{ACAD_REACTORS
330
47
102
}
330
47
100
AcDbScale
 70
     0
300
1:16
140
1.0
141
16.0
290
     0
  0
SCALE
  5
4F
102
{ACAD_REACTORS
330
47
102
}
330
47
100
AcDbScale
 70
     0
300
1:20
140
1.0
141
20.0
290
     0
  0
SCALE
  5
50
102
{ACAD_REACTORS
330
47
102
}
330
47
100
AcDbScale
 70
     0
300
1:30
140
1.0
141
30.0
290
     0
  0
SCALE
  5
51
102
{ACAD_REACTORS
330
47
102
}
330
47
100
AcDbScale
 70
     0
300
1:40
140
1.0
141
40.0
290
     0
  0
SCALE
  5
52
102
{ACAD_REACTORS
330
47
102
}
330
47
100
AcDbScale
 70
     0
300
1:50
140
1.0
141
50.0
290
     0
  0
SCALE
  5
53
102
{ACAD_REACTORS
330
47
102
}
330
47
100
AcDbScale
 70
     0
300
1:100
140
1.0
141
100.0
290
     0
  0
SCALE
  5
54
102
{ACAD_REACTORS
330
47
102
}
330
47
100
AcDbScale
 70
     0
300
2:1
140
2.0
141
1.0
290
     0
  0
SCALE
  5
55
102
{ACAD_REACTORS
330
47
102
}
330
47
100
AcDbScale
 70
     0
300
4:1
140
4.0
141
1.0
290
     0
  0
SCALE
  5
56
102
{ACAD_REACTORS
330
47
102
}
330
47
100
AcDbScale
 70
     0
300
8:1
140
8.0
141
1.0
290
     0
  0
SCALE
  5
57
102
{ACAD_REACTORS
330
47
102
}
330
47
100
AcDbScale
 70
     0
300
10:1
140
10.0
141
1.0
290
     0
  0
SCALE
  5
58
102
{ACAD_REACTORS
330
47
102
}
330
47
100
AcDbScale
 70
     0
300
100:1
140
100.0
141
1.0
290
     0
  0
SCALE
  5
59
102
{ACAD_REACTORS
330
47
102
}
330
47
100
AcDbScale
 70
     0
300
1/128" = 1'-0"
140
0.0078125
141
12.0
290
     0
  0
SCALE
  5
5A
102
{ACAD_REACTORS
330
47
102
}
330
47
100
AcDbScale
 70
     0
300
1/64" = 1'-0"
140
0.015625
141
12.0
290
     0
  0
SCALE
  5
5B
102
{ACAD_REACTORS
330
47
102
}
330
47
100
AcDbScale
 70
     0
300
1/32" = 1'-0"
140
0.03125
141
12.0
290
     0
  0
SCALE
  5
5C
102
{ACAD_REACTORS
330
47
102
}
330
47
100
AcDbScale
 70
     0
300
1/16" = 1'-0"
140
0.0625
141
12.0
290
     0
  0
SCALE
  5
5D
102
{ACAD_REACTORS
330
47
102
}
330
47
100
AcDbScale
 70
     0
300
3/32" = 1'-0"
140
0.09375
141
12.0
290
     0
  0
SCALE
  5
5E
102
{ACAD_REACTORS
330
47
102
}
330
47
100
AcDbScale
 70
     0
300
1/8" = 1'-0"
140
0.125
141
12.0
290
     0
  0
SCALE
  5
5F
102
{ACAD_REACTORS
330
47
102
}
330
47
100
AcDbScale
 70
     0
300
3/16" = 1'-0"
140
0.1875
141
12.0
290
     0
  0
SCALE
  5
60
102
{ACAD_REACTORS
330
47
102
}
330
47
100
AcDbScale
 70
     0
300
1/4" = 1'-0"
140
0.25
141
12.0
290
     0
  0
SCALE
  5
61
102
{ACAD_REACTORS
330
47
102
}
330
47
100
AcDbScale
 70
     0
300
3/8" = 1'-0"
140
0.375
141
12.0
290
     0
  0
SCALE
  5
62
102
{ACAD_REACTORS
330
47
102
}
330
47
100
AcDbScale
 70
     0
300
1/2" = 1'-0"
140
0.5
141
12.0
290
     0
  0
SCALE
  5
63
102
{ACAD_REACTORS
330
47
102
}
330
47
100
AcDbScale
 70
     0
300
3/4" = 1'-0"
140
0.75
141
12.0
290
     0
  0
SCALE
  5
64
102
{ACAD_REACTORS
330
47
102
}
330
47
100
AcDbScale
 70
     0
300
1" = 1'-0"
140
1.0
141
12.0
290
     0
  0
SCALE
  5
65
102
{ACAD_REACTORS
330
47
102
}
330
47
100
AcDbScale
 70
     0
300
1-1/2" = 1'-0"
140
1.5
141
12.0
290
     0
  0
SCALE
  5
66
102
{ACAD_REACTORS
330
47
102
}
330
47
100
AcDbScale
 70
     0
300
3" = 1'-0"
140
3.0
141
12.0
290
     0
  0
SCALE
  5
67
102
{ACAD_REACTORS
330
47
102
}
330
47
100
AcDbScale
 70
     0
300
6" = 1'-0"
140
6.0
141
12.0
290
     0
  0
SCALE
  5
68
102
{ACAD_REACTORS
330
47
102
}
330
47
100
AcDbScale
 70
     0
300
1'-0" = 1'-0"
140
12.0
141
12.0
290
     0
  0
ENDSEC
  0
EOF
